Thursday, June 14, 2012

Teri Meri Prem Kahan Guitar Tabs & Lyrics

Teri Meri Prem Kahani from the movie "Bodyguard" guitar Tabs & Lyrics...


Teri meri, meri teri prem kahani hai mushqil


e|------5-3-5----3-5-----3-5-3--------------------|
b|--3-----------6-------6----------6-5-3-5-3-1---|
g|-----------------------------------------------------|


Do lafzon mein yeh beyaan na ho paaye


e|-------1-0-3-5-3-1-0----------------------------|
b|-1-3---------------------3-3-------------------|
g|-------------------------------------------------|


Ik ladka ik ladki ki yeh kahani hai nayi


e|------5-3-5----3-5-----3-5-3--------------------|
b|--3-----------6-------6----------6-5-3-5-3-1---|
g|-----------------------------------------------------|



Do lafzoon mein yeh bayaan na ho paaye


e|-------1-0-3-5-3-1-0----------------------------|
b|-1-3---------------------3-3-------------------|
g|-------------------------------------------------|

Teri meri, meri teri prem kahani hai mushqil


Aaa...


Tumse dil jo lagaya toh jahaan maine paaya


e|--------5-3-----3---------5-6-5--------------|
b|--3-6-------6-----6-3-6------------------|


Kabhi socha na tha yun meelon door hoga saaya


e|--------5-3-----3---------5-6-5--------------|
b|--3-6-------6-----6-3-6------------------|


Kyun khuda tune mujhe aisa khwaab dikhaya


e|---8-8-10-12-13-12-12-10-9-11-13-14-13-13-----------|
b|----------------------------------------------------------|
Jab haqiqat mein usey todna tha


e|--8-8-10-12-13-12-12-10-8-9-12-|
b|--------------------------------------------|


Aa....


Ik dooje se huye judaa, jab ik dooje ke liye bane


e|--5-6-5-5-6-5-5-5-5-5-10-8-6-5-3-5-------------|


For the Chords Guitar Tutorial Click the link : http://www.theeasyguitar.net/2011/09/teri-meri-bodyguard-easy-learn-to-play.html



1 comment: